行きたい日付からパパッと検索!航空券の最安値が見つかる!

Seul partida
Gimpo partida

Okinawa ida
Naha chegada

Naha partida  Gimpo ida

Os preços podem mudar mediante a data de embarque. Por favor clique na data no calendário para seleccionar a data de embarque.

Departure Date

2024/5
Dom. Seg. Ter. Qua. Qui. Sex. Sáb.
1------2------3------4------
5------6------7------8------9------10------11------
12------13------14------15------16------17------18------
19------20------21------22------23------24------25403
26405273782837829Search3040531423
Selecione a Data de Devolução   Alterar Data de Partida

Data de Retorno

2024/5
Dom.Seg.Ter.Qua.Qui.Sex.Sáb.
1------2------3------4------
5------6------7------8------9------10------11------
12------13------14------15------16------17------18------
19------20------21------22------23------24------25------
26------27------28------29------30------31------
  Selecione a Data de Partida

Moeda:euro na leituraObter uma taxaRe-aquisição

Departure Date
Data de Retorno
montante total(Ida e Volta/economia)

Taxas que são exibidos, há um caso em que os resultados da pesquisa reais difiram

  • Seul partida -Okinawa ida
    Avião Tempo de vôo Veja abaixo

    4 Horas 45 Minutos
  • Seul partida -Okinawa chegada
    Número de companhias aéreas Veja abaixo

    8
ステータス:
メッセージ1
メッセージ2
メッセージ3
メッセージ4
メッセージ5
メッセージ6
メッセージ7
メッセージ8
メッセージ9
メッセージ10
メッセージ11
メッセージ12
メッセージ13
メッセージ14
$(function() { $('.header_service_menu li').css('width', '50%'); });