行きたい日付からパパッと検索!航空券の最安値が見つかる!

Osaka partida
Osaka(Kansai) partida

Takao ida
Kaohsiung chegada

Kaohsiung partida  (Kansai) ida

Os preços podem mudar mediante a data de embarque. Por favor clique na data no calendário para seleccionar a data de embarque.

Departure Date

2020/10
Dom. Seg. Ter. Qua. Qui. Sex. Sáb.
1------2------3------
4------5------6------7------8------9------10------
11------12------13------14------15------16------17------
18------19------20------21Search222032391024211
252132658227628281,223292203068531221
Por favor, selecione um caminho data de partida de retorno   Alterar a data de saída externa

Return Date

2020/10
Dom.Seg.Ter.Qua.Qui.Sex.Sáb.
1------2------3------
4------5------6------7------8------9------10------
11------12------13------14------15------16------17------
18------19------20------21------22------23------24------
25------26------27------28------29------30------31------
  Por favor, seleccione uma data de partida caminho a seguir

Moeda:euro na leituraObter uma taxaRe-aquisição

Departure Date
Return Date
montante total(Ida e Volta/economia)

Taxas que são exibidos, há um caso em que os resultados da pesquisa reais difiram

  • Osaka partida -Takao ida
    Avião Tempo de vôo Veja abaixo

    3Horas 40Minutos
  • Osaka partida -Takao chegada
    Número de companhias aéreas Veja abaixo

    30

Passagens aéreas baratas e passagens aéreas para (Kansai) partida -Kaohsiung chegada são skyticket!

ステータス:
メッセージ1
メッセージ2
メッセージ3
メッセージ4
メッセージ5
メッセージ6
メッセージ7
メッセージ8
メッセージ9
メッセージ10
メッセージ11
メッセージ12
メッセージ13
メッセージ14