行きたい日付からパパッと検索!航空券の最安値が見つかる!

kochi partida
Kochi partida

Busan ida
Busan chegada

PUS partida  Kochi ida

Os preços podem mudar mediante a data de embarque. Por favor clique na data no calendário para seleccionar a data de embarque.

Departure Date

2024/7
Dom. Seg. Ter. Qua. Qui. Sex. Sáb.
1------2------3------4------5------6------
7------8------9------10------11------12------13------
14------15------16------17------18------19------20------
21------22------23------24------25Search26Search271,382
28Search29Search30Search31Search
Selecione a Data de Devolução   Alterar Data de Partida

Data de Retorno

2024/7
Dom.Seg.Ter.Qua.Qui.Sex.Sáb.
1------2------3------4------5------6------
7------8------9------10------11------12------13------
14------15------16------17------18------19------20------
21------22------23------24------25------26------27------
28------29------30------31------
  Selecione a Data de Partida

Moeda:euro na leituraObter uma taxaRe-aquisição

Departure Date
Data de Retorno
montante total(Ida e Volta/economia)

Taxas que são exibidos, há um caso em que os resultados da pesquisa reais difiram

  • Kochi partida -PUS chegada

    julho O menor preço Veja abaixo

    EUR1,382


    A companhia aérea com este valor de voo é Japan Airlines.


    Definir o calendário para este mês.
  • Kochi partida -PUS chegada

    agosto O menor preço Veja abaixo -----
  • Kochi partida -PUS chegada

    setembro O menor preço Veja abaixo -----
  • Kochi partida -PUS chegada

    outubro O menor preço Veja abaixo -----
  • Kochi partida -PUS chegada

    novembro O menor preço Veja abaixo -----
  • kochi partida -Busan ida
    Avião Tempo de vôo Veja abaixo

    1 Horas 50 Minutos
  • kochi partida -Busan chegada
    Número de companhias aéreas Veja abaixo

    4
ステータス:
メッセージ1
メッセージ2
メッセージ3
メッセージ4
メッセージ5
メッセージ6
メッセージ7
メッセージ8
メッセージ9
メッセージ10
メッセージ11
メッセージ12
メッセージ13
メッセージ14
$(function() { $('.header_service_menu li').css('width', '50%'); });