行きたい日付からパパッと検索!航空券の最安値が見つかる!

Las Vegas partida
McCarran (Las Vegas) partida

Seattle ida
Seattle–Tacoma (Sea–Tac) chegada

Seattle–Tacoma (Sea–Tac) partida  McCarran () ida

Os preços podem mudar mediante a data de embarque. Por favor clique na data no calendário para seleccionar a data de embarque.

Departure Date

2021/7
Dom. Seg. Ter. Qua. Qui. Sex. Sáb.
1------2------3------
4------5------6------7------8------9------10------
11------12------13------14------15------16------17------
18------19------20------21------22------23------24------
25------26------27------28------29------30Search31245
Selecione a Data de Devolução   Alterar Data de Partida

Data de Retorno

2021/7
Dom.Seg.Ter.Qua.Qui.Sex.Sáb.
1------2------3------
4------5------6------7------8------9------10------
11------12------13------14------15------16------17------
18------19------20------21------22------23------24------
25------26------27------28------29------30------31------
  Selecione a Data de Partida

Moeda:euro na leituraObter uma taxaRe-aquisição

Departure Date
Data de Retorno
montante total(Ida e Volta/economia)

Taxas que são exibidos, há um caso em que os resultados da pesquisa reais difiram

  • McCarran () partida -Seattle–Tacoma (Sea–Tac) chegada

    julho O menor preço Veja abaixo

    EUR245


    A companhia aérea com este valor de voo é Delta Air Lines.


    Definir o calendário para este mês.
  • McCarran () partida -Seattle–Tacoma (Sea–Tac) chegada

    agosto O menor preço Veja abaixo

    EUR252


    A companhia aérea com este valor de voo é Delta Air Lines.


    Definir o calendário para este mês.
  • McCarran () partida -Seattle–Tacoma (Sea–Tac) chegada

    setembro O menor preço Veja abaixo -----
  • McCarran () partida -Seattle–Tacoma (Sea–Tac) chegada

    outubro O menor preço Veja abaixo -----
  • McCarran () partida -Seattle–Tacoma (Sea–Tac) chegada

    novembro O menor preço Veja abaixo -----
  • Las Vegas partida -Seattle ida
    Avião Tempo de vôo Veja abaixo

    3Horas 52Minutos
  • Las Vegas partida -Seattle chegada
    Número de companhias aéreas Veja abaixo

    5

Passagens aéreas baratas e passagens aéreas para McCarran () partida -Seattle–Tacoma (Sea–Tac) chegada são skyticket!

ステータス:
メッセージ1
メッセージ2
メッセージ3
メッセージ4
メッセージ5
メッセージ6
メッセージ7
メッセージ8
メッセージ9
メッセージ10
メッセージ11
メッセージ12
メッセージ13
メッセージ14