行きたい日付からパパッと検索!航空券の最安値が見つかる!

Minneapolis partida
Minneapolis–Saint Paul partida

Nova Iorque ida
Newark Liberty chegada

Newark Liberty partida  –Saint Paul ida

Os preços podem mudar mediante a data de embarque. Por favor clique na data no calendário para seleccionar a data de embarque.

Departure Date

2020/11
Dom. Seg. Ter. Qua. Qui. Sex. Sáb.
1------2------3------4------5------6------7------
8------9------10------11------12------13------14------
15------16------17------18------19------20------21------
22------23------24------25------26------27------28------
29------30Search
Por favor, selecione um caminho data de partida de retorno   Alterar a data de saída externa

Return Date

2020/11
Dom.Seg.Ter.Qua.Qui.Sex.Sáb.
1------2------3------4------5------6------7------
8------9------10------11------12------13------14------
15------16------17------18------19------20------21------
22------23------24------25------26------27------28------
29------30------
  Por favor, seleccione uma data de partida caminho a seguir

Moeda:euro na leituraObter uma taxaRe-aquisição

Departure Date
Return Date
montante total(Ida e Volta/economia)

Taxas que são exibidos, há um caso em que os resultados da pesquisa reais difiram

  • –Saint Paul partida -Newark Liberty chegada

    novembro O menor preço Veja abaixo -----
  • –Saint Paul partida -Newark Liberty chegada

    dezembro O menor preço Veja abaixo

    EUR410


    A companhia aérea com este valor de voo é Delta Air Lines.


    Definir o calendário para este mês.
  • –Saint Paul partida -Newark Liberty chegada

    janeiro O menor preço Veja abaixo -----
  • –Saint Paul partida -Newark Liberty chegada

    fevereiro O menor preço Veja abaixo -----
  • –Saint Paul partida -Newark Liberty chegada

    Março O menor preço Veja abaixo -----
  • Minneapolis partida -Nova Iorque ida
    Avião Tempo de vôo Veja abaixo

    2Horas 28Minutos
  • Minneapolis partida -Nova Iorque chegada
    Número de companhias aéreas Veja abaixo

    4

Passagens aéreas baratas e passagens aéreas para –Saint Paul partida -Newark Liberty chegada são skyticket!

ステータス:
メッセージ1
メッセージ2
メッセージ3
メッセージ4
メッセージ5
メッセージ6
メッセージ7
メッセージ8
メッセージ9
メッセージ10
メッセージ11
メッセージ12
メッセージ13
メッセージ14